Tablatura para Guitarra de Alex Campos: Me robaste el corazón
Conexión · Inscripción
Letras y Acordes
Pantalla Completa
Imprimir
Versión Texto
Añadir Favorito
Otras Versiones

Mostrar Diagramas
Desfile Automático
Manipular Acordes
Formato del Texto

Alex Campos
Me robaste el corazón(TAB)
calidad:
acam0013
AUTOR: Alex Campos
ALBUM: El tiempo de la Cruz (2001)
Enviado por Juan
                             

Intro
                                                                          
E||-----------------0----|------------1h-0-------|------------3h-0-------|
B||--1---------3---------|--3---------------3----|--1---------------1----|
G||-------0--------------|-------0---------------|-------2---------------|
D||----------------------|-----------------------|-----------------------|
A||--3-------------------|--2--------------------|--0--------------------|
E||----------------------|-----------------------|-----------------------|


                                                                      
|----------------------|-----------------0----|------------1h-0-------|
|--0---------1h---3----|--1---------3---------|--3---------------3----|
|-------0--------------|-------0--------------|-------0---------------|
|----------------------|----------------------|-----------------------|
|----------------------|--3-------------------|--2--------------------|
|--3-------------------|----------------------|-----------------------|


                                                                      
|------------3h-0-------|----------------------|----------------------|
|--1---------------1----|--0---------0---------|--1---------1---------|
|-------2---------------|-------0---------0----|-------0---------0----|
|-----------------------|----------------------|----------------------|
|--0--------------------|----------------------|----------------------|
|-----------------------|--3-------------------|--3-------------------|


                                              
|----------------------|----------------------|
|--3---------3---------|--3---------3---------|
|-------0---------0----|-------0---------0----|
|----------------------|----------------------|
|----------------------|----------------------|
|--3-------------------|----------------------|


                                           
|------------------------------------------|
|--1---------1---------1---------1---------|
|-------0---------0---------0---------0----|
|------------------------------------------|
|--3---------------------------------------|
|------------------------------------------|


                                           
|-------------------------------------0----|
|--3---------3---------3---------3---------|
|-------0---------0---------0--------------|
|------------------------------------------|
|--2---------------------------------------|
|------------------------------------------|


                                           
|------------------------------------------|
|--1---------1---------1---------1---------|
|-------2---------2---------2---------2----|
|------------------------------------------|
|--0---------------------------------------|
|------------------------------------------|


                                           
|------------------------------------------|
|--0---------0---------1---------3---------|
|-------0---------0---------0---------0----|
|------------------------------------------|
|------------------------------------------|
|--3-------------------3---------3---------|


                                           
|------------------------------------------|
|--1---------1---------1---------1---------|
|-------0---------0---------0---------0----|
|------------------------------------------|
|--3---------------------------------------|
|------------------------------------------|


                                           
|--------------------------------0---------|
|--3---------3---------3--------------3----|
|-------0---------0---------0--------------|
|------------------------------------------|
|--2---------------------------------------|
|------------------------------------------|


                                           
|------------------------------------------|
|--1---------1---------1---------1---------|
|-------2---------2---------2---------2----|
|------------------------------------------|
|--0---------------------------------------|
|------------------------------------------|


                                           
|------------------------------------------|
|--0---------0---------1---------3---------|
|-------0---------0---------0---------0----|
|------------------------------------------|
|------------------------------------------|
|--3-------------------3---------3---------|


                                           
|------------------------------------------|
|--1---------1---------1---------1---------|
|-------0---------0---------0---------0----|
|------------------------------------------|
|--3---------------------------------------|
|------------------------------------------|


                                          
|--------------------------------0--------|
|--3---------3---------3------------------|
|-------0---------0---------0-------------|
|-----------------------------------------|
|--2--------------------------------------|
|-----------------------------------------|


                                           
|------------------------------------------|
|--1---------1---------1---------1---------|
|-------2---------2---------2---------2----|
|------------------------------------------|
|--0---------------------------------------|
------------------------------------------|


                                        
|---------------------------------------|
|--0---------1---------3----------------|
|-------0---------0---------------------|
|---------------------------------------|
|---------------------------------------|
|--3-------------------3----------------|


                                           
|------------------------------------------|
|--1---------1---------1---------1---------|
|-------0---------0---------0---------0----|
|------------------------------------------|
|--3---------------------------------------|
|------------------------------------------|


                                            
|--------------------------------1h-0-------|
|--3---------3---------3---------------3----|
|-------0---------0---------0---------------|
|-------------------------------------------|
|--2----------------------------------------|
|-------------------------------------------|


                                           
|------------------------------------------|
|--1---------1---------1---------1---------|
|-------2---------2---------2---------2----|
|------------------------------------------|
|--0---------------------------------------|
|------------------------------------------|


                                                                   
|---------------------------------------|--------------0-----------|
|--0---------1---------3----------------|--1-----1-----------1-----|
|-------0---------0---------------------|-----0-----0-----0-----0--|
|---------------------------------------|--------------------------|
|---------------------------------------|--3-----------------------|
|--3-------------------3----------------|--------------------------|


                                                      
|--------------0-----------|--------------3-----------|
|--1-----1-----------1-----|--3-----3-----------3-----|
|-----0-----0-----0-----0--|-----0-----0-----0-----0--|
|--------------------------|--------------------------|
|--3-----------------------|--------------------------|
|--------------------------|--3-----------------------|


                                                      
|--------------1-----------|--------------------------|
|--3-----3-----------3-----|--1-----1-----1-----1-----|
|-----2-----2-----2-----2--|-----2-----2-----2-----2--|
|--------------------------|--------------------------|
|--0-----------------------|--0-----------2-----------|
|--------------------------|--------------------------|


                                                      
|--------------0-----------|--------------3-----------|
|--1-----1-----------1-----|--3-----3-----------3-----|
|-----0-----0-----0-----0--|-----0-----0-----0-----0--|
|--------------------------|--------------------------|
|--3-----------------------|--------------------------|
|--------------------------|--3-----------------------|


                                                      
|--------------1-----------|--------------------------|
|--3-----3-----------3-----|--1-----1-----1-----1-----|
|-----2-----2-----2-----2--|-----2-----2-----2-----2--|
|--------------------------|--------------------------|
|--0-----------------------|--0-----------2-----------|
|--------------------------|--------------------------|


                                                      
|--------------0-----------|--------------3-----------|
|--1-----1-----------1-----|--3-----3-----------3-----|
|-----0-----0-----0-----0--|-----0-----0-----0-----0--|
|--------------------------|--------------------------|
|--3-----------------------|--------------------------|
|--------------------------|--3-----------------------|


                                                      
|--------------1-----------|--------------------------|
|--3-----3-----------3-----|--1-----1-----1-----1-----|
|-----2-----2-----2-----2--|-----2-----2-----2-----2--|
|--------------------------|--------------------------|
|--0-----------------------|--0-----------2-----------|
|--------------------------|--------------------------|


                                                      
|--------------0-----------|--------------3-----------|
|--1-----1-----------1-----|--3-----3-----------3-----|
|-----0-----0-----0-----0--|-----0-----0-----0-----0--|
|--------------------------|--------------------------|
|--3-----------------------|--------------------------|
|--------------------------|--3-----------------------|


                                                      
|--------------1-----------|--------------------------|
|--3-----3-----------3-----|--1-----1-----1-----1-----|
|-----2-----2-----2-----2--|-----2-----2-----2-----2--|
|--------------------------|--------------------------|
|--0-----------------------|--0-----------------------|
|--------------------------|--------------------------|


                                                      
|--------------------------|--------------0-----------|
|--1-----1-----1-----1-----|--1-----1-----------1-----|
|-----2-----2-----2-----2--|-----0-----0-----0-----0--|
|--------------------------|--------------------------|
|--------------------------|--3-----------------------|
|--------------------------|--------------------------|


                                                      
|--------------3-----------|--------------1-----------|
|--3-----3-----------3-----|--3-----3--------3-----3--|
|-----0-----0-----0-----0--|-----2-----2--------2-----|
|--------------------------|--------------------------|
|--------------------------|--0-----------------------|
|--3-----------------------|--------------------------|


                                                      
|--------------0-----------|--------------0-----------|
|--1-----1--------1-----1--|--1-----1-----------1-----|
|-----2-----2--------2-----|-----0-----0-----0-----0--|
|--------------------------|--------------------------|
|--0-----------2-----------|--3-----------------------|
|--------------------------|--------------------------|


                                                      
|--------------0-----------|--------------1-----------|
|--3-----3-----------3-----|--3-----3-----------3-----|
|-----0-----0-----0-----0--|-----0-----0-----0-----0--|
|--------------------------|--------------------------|
|--2-----------------------|--2-----------------------|
|--------------------------|--------------------------|


                                                                         
|--------------0-----------|----------------------|-----------------0----|
|--1-----1--------1-----1--|--1-----1-------------|--1---------3---------|
|-----2-----2--------2-----|-----2-----2----------|-------0--------------|
|--------------------------|----------------------|----------------------|
|--0-----------2-----------|----------------------|--3-------------------|
|--------------------------|----------------------|----------------------|


                                                                       
|------------1h-0-------|------------3h-0-------|----------------------|
|--3---------------3----|--1---------------1----|--0---------1h---3----|
|-------0---------------|-------2---------------|-------0--------------|
|-----------------------|-----------------------|----------------------|
|--2--------------------|--0--------------------|----------------------|
|-----------------------|-----------------------|--3-------------------|


                                                                       
|-----------------0----|------------1h-0-------|------------3h-0-------|
|--1---------3---------|--3---------------3----|--1---------------1----|
|-------0--------------|-------0---------------|-------2---------------|
|----------------------|-----------------------|-----------------------|
|--3-------------------|--2--------------------|--0--------------------|
|----------------------|-----------------------|-----------------------|


                                                                     
|----------------------|----------------------|----------------------|
|--0---------0---------|--1---------1---------|--3---------3---------|
|-------0---------0----|-------0---------0----|-------0---------0----|
|----------------------|----------------------|----------------------|
|----------------------|----------------------|----------------------|
|--3-------------------|--3-------------------|--3-------------------|


                                                                 
|----------------------|--------------------------------0--------|
|--3---------3---------|--1---------1---------1------------------|
|-------0---------0----|-------0---------0---------0-------------|
|----------------------|-----------------------------------------|
|----------------------|--3--------------------------------------|
|----------------------|-----------------------------------------|


                                             
|--------------------------------0-----------|
|--3---------3---------3------------3-----3--|
|-------0---------0---------0----------0-----|
|--------------------------------------------|
|--2-----------------------------------------|
|--------------------------------------------|


                                           
|------------------------------------------|
|--1---------1---------1---------1---------|
|-------2---------2---------2---------2----|
|------------------------------------------|
|--0---------------------------------------|
|------------------------------------------|


                                           
|-------------------------------------0----|
|--0---------0---------1---------3---------|
|-------0---------0---------0--------------|
|------------------------------------------|
|------------------------------------------|
|--3-------------------3---------3---------|


                                           
|------------------------------------------|
|--1---------1---------1---------1---------|
|-------0---------0---------0---------0----|
|------------------------------------------|
|--3---------------------------------------|
|------------------------------------------|


                                           
|-------------------------------------0----|
|--3---------3---------3---------3---------|
|-------0---------0---------0--------------|
|------------------------------------------|
|--2---------------------------------------|
|------------------------------------------|


                                            
|--------------------------------3h-0-------|
|--1---------1---------1---------------1----|
|-------2---------2---------2---------------|
|-------------------------------------------|
|--0----------------------------------------|
|-------------------------------------------|


                                           
|------------------------------------------|
|--0---------0---------1---------3---------|
|-------0---------0---------0---------0----|
|------------------------------------------|
|------------------------------------------|
|--3-------------------3---------3---------|


                                           
|------------------------------------------|
|--1---------1---------1---------1---------|
|-------0---------0---------0---------0----|
|------------------------------------------|
|--3---------------------------------------|
|------------------------------------------|


                                           
|-------------------------------------0----|
|--3---------3---------3---------3---------|
|-------0---------0---------0--------------|
|------------------------------------------|
|--2---------------------------------------|
|------------------------------------------|


                                           
|------------------------------------------|
|--1---------1---------1---------1---------|
|-------2---------2---------2---------2----|
|------------------------------------------|
|--0---------------------------------------|
|------------------------------------------|


                                                   
|------------------------------------------|------||
|--0---------0---------1---------3---------|------||
|-------0---------0---------0---------0----|------||
|------------------------------------------|------||
|------------------------------------------|------||
|--3-------------------3---------3---------|------||


Aqui entra el piano........


Cualquier sugerencia o preguntas escribir al e-mail:
andreti192@hotmail.com     

Esperamos la disfruten ¡Bendiciones! 

Agradecimientos a MPL (Ministerio Punta de Lanza) y pastor Roger, a mis
conciervos y mi lider Victor Daniel, que Dios los bendiga.

Att:   Juan Andres Mueses             Jhonny Salinas  (Colombia)
           Arpegios                       Arreglos
Envía el tono de "Me robaste el corazón" a tu celular/móvil
Este fichero es trabajo propio de su transcriptor y representa su interpretación personal de la canción. El material contenido en esta página es
para exclusivo uso privado, por lo que se prohibe su reproducción o retransmisión, así como su uso para fines comerciales.
© LaCuerda.net · Aviso Legal · Privacidad