Tablatura para Guitarra de Alex Campos: Me Dijo
Conexión · Inscripción
Letras y Acordes
Pantalla Completa
Imprimir
Versión Texto
Añadir Favorito
Otras Versiones

Mostrar Diagramas
Desfile Automático
Manipular Acordes
Formato del Texto

Alex Campos
Me Dijo(TAB)
calidad:
acam0454
AUTOR: Alex Campos
ALBUM: Acústico - el Sonido del Silencio (2006)
Enviado por adrian
Intro:
D:----------------------------------------------2-5-2--2-5-2--
A:-----5-8-5---5-8-5--------2-5-2--2-5~-2---3x4------3------3-
E:-6x4-------6-------6--3x4------3--------3-------------------

----7-10-7------|
-8x4------8-8-8-|
----------------|

Junto con las trompetas:
E:--6-6-6-6---3-3-3-3---3-3-3-3---1-1-1-1-|
B:--6-6-6-6---3-3-3-3---4-4-4-4---1-1-1-1-|
G:--7-7-7-7---3-3-3-3---5-5-5-5---2-2-2-2-|
D:--8-8-8-8---5-5-5-5---5-5-5-5---3-3-3-3-|
A:--8-8-8-8---5-5-5-5---3-3-3-3---3-3-3-3-|
E:--6-6-6-6---3-3-3-3---3-3-3-3---1-1-1-1-|x2

A#
Quiero decirlo cantando
              Gm          G/A-C/D
Lo que aquel día allí me paso
  Cm
Estaba solito y muy triste
             D#            F
Cuando de repente el apareció.

Hola como estas me miro
Y acercándose no lo podía creer
Era el creador de los cielos
El fuerte el eterno el Gran Yo Soy.

Pre-coro: (Con las trompetas)
E:--6-6-6----3-3-3---3-3-3---1-1-1-|
B:--6-6-6----3-3-3---4-4-4---1-1-1-|
G:--7-7-7----3-3-3---3-3-3---2-2-2-|
D:--8-8-8----5-5-5---0-0-0---3-3-3-|
A:--8-8-8----5-5-5---0-0-0---3-3-3-|
E:--6-6-6----3-3-3---0-0-0---1-1-1-|

Coro:
A#
Me dijo sonriendo
Tú eres mi deseo
Gm
Tú eres lo que yo más quiero
Sin ti yo me desespero
      Cm
Me dijo eres mi luna
Eres mi cielo
  F
Eres poesía
Eres todos mis sueños
A#
Tu mi reflejo tu mi anhelo
      Gm
Eres todo lo que quiero yo por ti muero
Cm
Nada es completo si no te tengo
F
Di por ti la vida para que hoy seas eterno.

Post-Coro:
D:--------------------------------------------
A:----5-7-5----5-7~-5--------2-5-2---2-5~-2---
E:-6-6------6-6-------6--3-3-------3-------3--

-----2-5-2-----3-5-7-5-----7-10-7---7-10-7-----|
-3-3-------3-5--------7-8-8------8-8-------8-5-|
-----------------------------------------------|

(Con las trompetas)
E:--6-6-6-6---3-3-3-3---3-3-3-3---1-1-1-1-|
B:--6-6-6-6---3-3-3-3---4-4-4-4---1-1-1-1-|
G:--7-7-7-7---3-3-3-3---5-5-5-5---2-2-2-2-|
D:--8-8-8-8---5-5-5-5---5-5-5-5---3-3-3-3-|
A:--8-8-8-8---5-5-5-5---3-3-3-3---3-3-3-3-|
E:--6-6-6-6---3-3-3-3---3-3-3-3---1-1-1-1-|


Estrofa II:

Quiero decirlo cantando
Lo que aquel día allí me paso
Conocí a mi Cristo mi amigo
Mi papi al todopoderoso

Seguiré cantando y gritando
Que el mundo me diga que loco estoy
Loco por amor el amor que el me dio
Y que traigo en esta canción.

*Pre-coro.
*Coro.
*Estrofa II.
*Pre-coro
Envía el tono de "Me Dijo" a tu celular/móvil
Este fichero es trabajo propio de su transcriptor y representa su interpretación personal de la canción. El material contenido en esta página es
para exclusivo uso privado, por lo que se prohibe su reproducción o retransmisión, así como su uso para fines comerciales.
© LaCuerda.net · Aviso Legal · Privacidad