Tablatura para Bajo de Alex Campos: Me Dijo
Conexión · Inscripción
Letras y Acordes
Pantalla Completa
Imprimir
Versión Texto
Añadir Favorito
Otras Versiones

Mostrar Diagramas
Desfile Automático
Formato del Texto

Alex Campos
Me Dijo(BAJ)
calidad:
acam0453
AUTOR: Alex Campos
ALBUM: Acústico - el Sonido del Silencio (2006)
Enviado por Manuel
Hola les dejo el bajo de esta cancion
es mas de la version te puedo sentir por los arreglos y eso


Bajo Solo.

G---------------------------------------------------
D---------------------------------------------------
A---------4-7-4---4-7-4------------0-4-0-----0-2-4--
E--5(x4)--------5--------5s-2(x4)---------2---------

G-------------------------------------------------
D--------4-7-4---4-7-4----------6-9-6-------------
A--5(x4)-------5-------5s-7(4x)-------7v-/12-----
E-------------------------------------------------


Junto Con Trompetas.


G-----------------------------------------------------
D-----------------------------------------------------
A------4---2h4-4-2--------0----0s4--2-4-2-------0-----
E--5-5---5---------4-2--2---2-------------4-2-2---2---

G----------------------------------------
D--5s9-9-9-5-5h7h5v----------------------
A--------------------5s7-7s5-5s77777-/--
E----------------------------------------




G-------------------------------------------------------
D-------------------------------------------------4-----
A------4---2h4-4-2--------0---0s4--2h4-4-2-4-5--5---5---
E--5-5---5---------4-2--2---2---------------------------

G------------------------------------------
D--5s9-9-9-9-5-5h7h5v----------------------
A----------------------5s7-7s5-5s77777-/--
E------------------------------------------

 Verso.
 A                                    E               E-D#-D
 quiero decirlo cantando lo que aquel dia alli me paso

                                        E
 estaba solito y muy triste cuando derrepente El aparecio
 D---6-9------
 A-7-----7----

 A                                     E                E-D#-D
 Hola como estas me miro y acercandose no lo podia creer

                                             E
 era el Creador de los cielos el Fuerte el Eterno gran yo soy.
 G-9-9-7-7-6-6---
 D-------------9-

 Puente.

G-----------------------------------------------------
D-----------------------------------------------------
A-----7-7-7-7-----7-7-7-7-------4-4-4-4-----4-4-2-4---
E-5-5---------5-5---------5s2-2---------2-2-----------

G-----------------------------------------------------
D-----7-7-7-7----7-7-7-7-------9-9-9-9----------------
A-5-5--------5-5---------5s7-7---------7-7-5-5-4-4----
E--------------------------------------------------7--

  Coro
 A
 Me dijo sonriendo tu eres mi deseo

 F#m
 tu eres lo que Yo mas quiero

                        D
 sin ti Yo me desespero me dijo

                           E
 eras mi luna eras mi cielo


 eres poesia, eres todos mis sueños

 A
 tu mi reflejo, tu mi anhelo

     F#m
 eres todo lo que quiero, Yo por ti muero

 D
 nada es completo, si no te tengo

 E                                          A
 Di por ti la vida para que hoy seas eterno.  A-7-7-5-5-4-4----
                                              E-------------7--

  Intermedio.

G----------------------------------------------
D----------------------------------------------
A------4---2h4-4-2--------0-------2h4-4-2-4-5--
E--5-5---5---------4-2--2---2------------------

G----------------------------------------------
D---4----5s9-9-9-9-5-5h7h5v--------------------
A-5---5---------------------5s7-7s5-5s77777/--
E-----------------------------------------------

 Verso 2
 A                                    E               E-D#m-D
 Quiero decirlo cantando lo que aquel dia alli me paso

                                        E
 conoci a mi Cristo mi amigo mi papi el Todopoderoso
 G-9-7-------
 D-----9-7-9-

 A                                             E           E-D#m-D
 seguire cantando y gritando que el mundo me diga que loco estoy

                                            E
 loco por amor, el amor que me dio y que traigo en esta cancion.
 A-9-9-7-7-6-6----
 E-------------7--



 Puente.

G-------------------------------------------------------
D-------------------------------------------------------
A-----7-7-7-7-----7-7-7-7-------4-4-4-4-----4-4-2-4-5---
E-5-5---------5-5---------5s2-2---------2-2-------------

G--------------------------------------------4----
D----7-7-7-7-----7-7-7-7-------9-9-9-9-----6---7--
A--5---------5-5---------5s7-7---------5-7--------
E-------------------------------------------------

   Coro
 A
 Me dijo sonriendo tu eres mi deseo

 F#m
 tu eres lo que Yo mas quiero

                               D
 sin ti Yo me desespero me dijo

                           E
 eras mi luna eras mi cielo


 eres poesia, eres todos mis sueños

 A
 tu mi reflejo, tu mi anhelo

     F#m
 eres todo lo que quiero, Yo por ti muero

 D
 nada es completo, si no te tengo

 E                                          A
 Di por ti la vida para que hoy seas eterno.
  A-7-7-5-5-4-4----
  E-------------7--


Verso 2(mas rapido).

  A                                    E               E-D#m-D
 Quiero decirlo cantando lo que aquel dia alli me paso

                                        E
 conoci a mi Cristo mi amigo mi papi el Todopoderoso
 D---------9---
 A-7-7-7-11--7-


 A                                              E               E-D#m-D
 seguire cantando y gritando aunque el mundo me diga que loco estoy

                                            E
 loco por amor, el amor que me dio y que traigo en esta cancion.
 A-9-9-7-7-6-6-----
 E--------------7--
 Final.

G-----------------------------------------------
D-----------------------------------------------
A------4---2h4-4-2--------0---0s4--2h4-4-2-4-5--
E--5-5---5---------4-2--2---2-------------------

G-------------------------------------------------------
D----4---5s9-9-9-9-5-5h7h5v------------------------------
A--5---5---------------------5s7-7s5-5s4-2-4-2-4----12--
E------------------------------------------------5/------
Envía el tono de "Me Dijo" a tu celular/móvil
Este fichero es trabajo propio de su transcriptor y representa su interpretación personal de la canción. El material contenido en esta página es
para exclusivo uso privado, por lo que se prohibe su reproducción o retransmisión, así como su uso para fines comerciales.
© LaCuerda.net · Aviso Legal · Privacidad