Tablatura para Guitarra de Alejandro Sanz: No me compares
Conexión · Inscripción
Letras y Acordes
Pantalla Completa
Imprimir
Versión Texto
Añadir Favorito
Otras Versiones

Mostrar Diagramas
Desfile Automático
Manipular Acordes
Formato del Texto


Alejandro Sanz
No me compares(TAB)
calidad:
asnz1252
AUTOR: Alejandro Sanz
ALBUM: desconocido (2012)
Enviado por Juanjo
[intro]
-12-13-12-13-12-13-12-8----8-------12--13-12-13-12-13-----8----8-------10--
------------------------10------10--------------------13----10------10-----
-----------------------------10----------------------------------10--------
---------------------------------------------------------------------------
---------------------------------------------------------------------------
---------------------------------------------------------------------------

-6---6-----8--5---5-----6--3---3-----5-1---1-----3--0---0-----1------------0-
---8-----8------6-----6------5-----5-----3-----3------1-----1----3---3---3---
-------9------------7------------6-----------3------------2--------3---0-----
-----------------------------------------------------------------------------
-----------------------------------------------------------------------------
-----------------------------------------------------------------------------

[acordes]
F      x33211
F/E    xx2211
Dm7    xx0211
F/A    x03211
c#dism -4535-
Bb/D   x5336x
C/E    x7558x

F F/E Dm7 Am Ahora que crujen las patas de la mecedora y hay nieve en el televisor
Bb F/A Gm C#dimm Bb/D C/E Ahora que llueve en la sala y se apagan las velas de un cielo que me iluminó
F F/E Dm7 Am Ahora que corren los lentos derramando trova y el mundo, ring, ring, despertó
Bb F/A Gm C#dimm Bb/D C/E Ahora que truena un silencio feroz ahora nos entra la tos.
Dm Am Bb F Ahora que hallamos el tiempo podemos mirarnos detrás del rencor
Dm Am Bb C Ahora te enseño de dónde vengo y las piezas rotas del motor
Dm Am Bb F Ahora que encuentro mi puerto ahora me encuentro tu duda feroz
Dm Am Bb C Ahora te enseño de dónde vengo y de qué tengo hecho el corazón.
F Vengo del aire
F/E Que te secaba a ti la piel, mi amor
Bb Gm C#dimm Bb/D C/E Yo soy la calle, donde te lo encontraste a él
F Gm No me compares
C F bajé a la tierra en un pincel por ti
Bb Gm C#dimm Bb/D C/E imperdonable,que yo no me parezco a él…
F F/E Dm Am Bb C Dm C/E Ni a él, ni a nadie… Ahora que saltan los gatos buscando las sobras, maúllas la triste canción Ahora que tú te has quedao sin palabras comparas, comparas, con tanta pasión. Ahora podemos mirarnos sin miedo al reflejo en el retrovisor Ahora te enseño de dónde vengo y las heridas que me dejó el amor Ahora no quiero aspavientos Tan sólo una charla tranquila entre Dos. Si quieres te cuento por qué te quiero y si quieres cuento por qué no. Vengo del aire Que te secaba a ti la piel, mi amor. Soy de la calle, donde te lo encontraste a él. No me compares Baje a la tierra en un pincel por ti, Imperdonable,que yo no me parezco a él… Ni a él, ni a nadie… Que alguien me seque de tu piel mi amor que nos desclaven y que te borren de mi sien Que no me hables que alguien me seque de tu piel, mi amor que nos desclaven yo soy tu alma, tú eres mi aire..
F F/E Bb Gm C#dimm Bb/D C/E [solo - en las segunda cuerda] ----------------------------------------------------------- -6-6-8-8-10-10---10-10-8-8-6-6---5-5-6-6-8-8---8-8-6-6-5-5- [...] ----------------------------------------------------------- -6-6-8-8-10-10---10-10-8-8-6-6---6-6-8-8-10--5-5--5-6-8---- [...] Que nos separen, si es que pueden que nos separen, que lo intenten Que nos separen, que lo intenten yo soy tu alma y tu mi suerte Que nos separen, si es que pueden que nos desclaven, que lo intenten Que nos separen, que lo intenten yo soy tu alma y tu mi suerte... jj \o.o/ Gracias a Carlos Asensio de guitarraviva.com por los acordes
Este fichero es trabajo propio de su transcriptor y representa su interpretación personal de la canción. El material contenido en esta página es
para exclusivo uso privado, por lo que se prohibe su reproducción o retransmisión, así como su uso para fines comerciales.
© LaCuerda.net · Aviso Legal · Privacidad