Letra y Acordes de Alejandro del Bosque: Adorar
Conexión · Inscripción
Letras y Acordes
Pantalla Completa
Imprimir
Versión Texto
Añadir Favorito
Otras Versiones

Mostrar Diagramas
Desfile Automático
Manipular Acordes
Formato del Texto


Alejandro del Bosque
Adorar
calidad:
adbo0042
AUTOR: Alejandro del Bosque  corregir
ALBUM: Sin ti no vivo (2005)
Enviado por Ramses
Intro

e------------------------------------------------------------------------|
B------2/3--3/5---3-------2/3--3/5---------2/3--3/5--3------2/3----------|
G-3/4----------------3/4-----------4--3/4---------------3/4-------0------|
D--------------------------------------------------------------------0h2-|
A------------------------------------------------------------------------|
E------------------------------------------------------------------------|

Acústica:



Adorar es todo en mi vida, bendecirte es la pasión que arde mi corazón

Agradarte es mi gran deseo es mi gran anhelo


Adorar es lo que mantiene el aliento en mi ser Poderte satisfacer

Es el motivo por el cual yo vivo Por el cual yo existo

Coro:

 Yo quiero ser un adorador que siempre busca lo tuyo

 Que se deleita en tu presencia y su deseo es amarte

 Yo quiero ser un adorador que ante tus pies ha rendido

 Que se deleita en tu presencia y su deseo es amarte

Eléctrica:

e--2-23-25-3-2-3--2-23-25-3-2-3-3/8-7-3---5-----5------5-|
B---------------------------------------3---333----333---|   x 2
G--------------------------------------------------------|

Fin:

e------------------------------------------------------------------------|
B------2/3--3/5---3-------2/3--3/5---------2/3--3/5--3------2/3----------|
G-3/4----------------3/4-----------4--3/4---------------3/4-------0------|
D--------------------------------------------------------------------0h2-|
A------------------------------------------------------------------------|
E------------------------------------------------------------------------|

Acústica:



Hey saludos para todos los chicos
de EFei Squad Youth Team en la Iglesia ACyM Fuente de Amor
y gracias al genio musical de Joel por ayudarme en esta
Este fichero es trabajo propio de su transcriptor y representa su interpretación personal de la canción. El material contenido en esta página es
para exclusivo uso privado, por lo que se prohibe su reproducción o retransmisión, así como su uso para fines comerciales.

© LaCuerda.net · Aviso Legal · Privacidad