Tablatura para Guitarra de Akash: Una sonrisa al atardecer
Conexión · Inscripción
Letras y Acordes
Pantalla Completa
Imprimir
Versión Texto
Añadir Favorito
Otras Versiones

Mostrar Diagramas
Desfile Automático
Manipular Acordes
Formato del Texto

Akash
Una sonrisa al atardecer(TAB)
calidad:
akas0023
AUTOR: Akash  corregir
ALBUM: desconocido
Enviado por Juan
Afinacion: Eb(MI Bemol)

Esta es la línea de la guitarra Líder.



00:00                                                00:07


------------------------15-14-15—15b------------------b15b------
--------------10s12--15-----------------------------------------
--------12-14---------------------------------------------------
--12h14---------------------------------------------------------
----------------------------------------------------------------
----------------------------------------------------------------


00:08

---------12-14-15-14-12-----------------------------------------
--s12-12----------------15-12-15s17—17v-------------------------
-------------------------------------------------7--9--7-7s-----
-------------------------------------------------7--9--7-7s-----
----------------------------------------------------------------
----------------------------------------------------------------


00:20                   00:26

------------------------------15-12-15b-15b-15p12-15v-----------
--10b—-10p8-10b------------12-----------------------------------
---------------------------12-----------------------------------
----------------------------------------------------------------
----------------------------------------------------------------
----------------------------------------------------------------


00:33

--17b--17b--17b--17b--------17v------------12v------------------
----------------------------------------------------------------
----------------------------------------------------------------
----------------------------------------------------------------
----------------------------------------------------------------
----------------------------------------------------------------


00:40

--15p12---------------------------------------------------------
----------15-15p12----------------------------------------------
--------------------14-14p12----14p12---------------------------
-----------------------------14--------14p12-14v----------------
----------------------------------------------------------------
----------------------------------------------------------------

00:43

----------------------------------------------------------------
----------------------------------------------------------------
------------------------------12-14-16-14--16--14-12------------
--14---12-10---16---14-12--14------------------------12-14---12-
----------------------------------------------------------------
----------------------------------------------------------------

-----------------------------------------15-14-15-15b-15-14-----
-------------------------------10s12--15---------------------15-
-------------------------12-14----------------------------------
10---16---14-12----12h14----------------------------------------
----------------------------------------------------------------
----------------------------------------------------------------


                     01:05

-12vv----------------12--12--12--12-----------------------------
---------------------15b-15b-15b-15b------15v-------------------
----------------------------------------------------------------
----------------------------------------------------------------
----------------------------------------------------------------
----------------------------------------------------------------


01:11                                01:18

-----15-12-17b-17b---17v---------------22b-22-20-19-------------
--12------------------------------------------------20v---------
--12------------------------------------------------------------
----------------------------------------------------------------
----------------------------------------------------------------
----------------------------------------------------------------


01:21

-----------------------------------------------------17-15------
--20--19---22-20-19----------------------------------17-15------
--------------------19-21v---------12-------14-------------16v--
-----------------------------12h14-12—12h14-14-12h14------------
----------------------------------------------------------------
----------------------------------------------------------------


----------------------------------------------------------------
----------------------------------------------------------------
------------------------------12-14-16-14--16--14-12------------
--14---12-10---16---14-12--14------------------------12-14---12-
----------------------------------------------------------------
----------------------------------------------------------------

-----------------------------------------15-14-15-15b-15-14--22b
-------------------------------10s12--15------------------------
-------------------------12-14----------------------------------
10---16---14-12----12h14----------------------------------------
----------------------------------------------------------------
----------------------------------------------------------------



Esta es toda la parte con guitarra limpia, espero que les sirva
como una buena guia,luego voy a subir el resto incluido el solo
que todavia no lo saco completo.

Dudas, sugerencias o comentarios escribeme al mail:
jplpmusic3@hotmail.
Envía el tono de "Una sonrisa al atardecer" a tu celular/móvil
Este fichero es trabajo propio de su transcriptor y representa su interpretación personal de la canción. El material contenido en esta página es
para exclusivo uso privado, por lo que se prohibe su reproducción o retransmisión, así como su uso para fines comerciales.
© LaCuerda.net · Aviso Legal · Privacidad