Tablatura para Guitarra de Airbag: Cae el sol
Conexión · Inscripción
Letras y Acordes
Pantalla Completa
Imprimir
Versión Texto
Añadir Favorito
Otras Versiones

Mostrar Diagramas
Desfile Automático
Manipular Acordes
Formato del Texto

Airbag
Cae el sol(TAB)
calidad:
airb0492
AUTOR: Patricio M. Sardelli
ALBUM: Voragine (2011)
Enviado por ArgentumRex, basado en Emanuel
Aquí les traigo una canción que, si bien
 ya hay muchas versiones con acordes, yo no
encontré ninguna tablatura del punteo que
 hace en gran parte de la canción.

Riff:

e|-12---12-12---11---9--9---9-9---9--------------------
B|----9-------9----9------9-----9---10/9-9-------9-----
G|-------------------------------------------9-----9---
D|-----------------------------------------9---9-----9-
A|-----------------------------------------------------
E|-----------------------------------------------------


------------------------------|
-------9----------------------|
-----9---9h11-11p9-11p9-------|
-5/9--------------------11~---|
------------------------------|
------------------------------|

Intro: Riff x2

 C#m     A     E     E
Cae el Sol en tu balcón
 C#m     A     E     E
y el ritual se terminó
  B        B       C#m       C#m
la verdad es que no ha sido fácil
  B        B       C#m       C#m            A
la verdad es que no ha sido fácil para los dos
  B             B
sigo aquí esperando por ti.

     C#m                   A
Yo quiero ir a algún lugar en donde pueda despertar
      E                    E
yo quiero verte sonreír y que no tengas que mentir
     C#m                   A
nos ves que estoy, estoy aquí dejando toda mi verdad
      E                    E
no queda nadie en la ciudad pero por vos me quedo acá.
 C#m     A     E     E
Y no se que fue de mas.
 C#m     A     E     E
Yo no se que estuvo mal
  B        B       C#m
y la luz me cegó en tu camino
  B        B       C#m                   A
descubrí, entendí el infinito entre los dos
  B             B
sigo aquí esperando por ti.

     C#m                   A
Yo quiero ir a algún lugar en donde pueda despertar
      E                    E
yo quiero verte sonreír y que no tengas que mentir
     C#m                   A
no ves que estoy, estoy aquí dejando toda mi verdad
      E                    E
no queda nadie en la ciudad pero por vos me quedo acá.

Riff
Sigo aquí esperando por ti
Riff
no se como voy a hacer.

     C#m                   A
Yo quiero ir a algún lugar en donde pueda despertar
      E                    E
yo quiero verte sonreír y que no tengas que mentir
     C#m                   A
no ves que estoy, estoy aquí gritando toda mi verdad
      E                    E
no queda nadie en la ciudad pero por vos me quedo acá

SOLO (no esta a mi disposición, pero acompaña con C#m-A-E-Ex2)


Sigo esperando por los dos.



     C#m                   A
Yo quiero ir a algún lugar en donde pueda despertar
      E                    E
yo quiero verte sonreír y que no tengas que mentir
     C#m                   A
no ves que estoy, estoy aquí gritando toda mi verdad
      E                    E
no queda nadie en la ciudad pero por vos me quedo acá


Riff x2



Los acordes que nombre:

C#m:

e|-4------------------
B|-5------------------
G|-6------------------
D|-6------------------
A|-4------------------
E|-x------------------

A:

e|-0------------------
B|-1------------------
G|-1------------------
D|-1------------------
A|-0------------------
E|-x------------------

E:

e|-0------------------
B|-0------------------
G|-1------------------
D|-2------------------
A|-2------------------
E|-0------------------

B:

e|-2------------------
B|-4------------------
G|-4------------------
D|-4------------------
A|-2------------------
E|-x------------------


Eso es todo, espero que les guste, que lo puedan sacar,
háganlo escuchando la canción.
Envía el tono de "Cae el sol" a tu celular/móvil
Este fichero es trabajo propio de su transcriptor y representa su interpretación personal de la canción. El material contenido en esta página es
para exclusivo uso privado, por lo que se prohibe su reproducción o retransmisión, así como su uso para fines comerciales.
© LaCuerda.net · Aviso Legal · Privacidad