Tablatura para Guitarra de Abuelos de la Nada: Lunes por la Madrugada
Conexión · Inscripción
Letras y Acordes
Pantalla Completa
Imprimir
Versión Texto
Añadir Favorito
Otras Versiones

Mostrar Diagramas
Desfile Automático
Manipular Acordes
Formato del Texto

Abuelos de la Nada
Lunes por la Madrugada(TAB)
calidad:
abue0054
AUTOR: Abuelos de la Nada  corregir
ALBUM: Mil Horas (1987)
Enviado por Federico
Intro

                 A
e--------0----------------0----------
B-----2--------2-------2--------2----
G-----------4----------------4-------
D------------------------------------
A--0----------------0----------------
E------------------------------------

                C#m
e------------------------------------
B--------5----------------5----------
G-----6-----4--6-------6-----4--6----
D------------------------------------
A--4----------------4----------------
E------------------------------------

                D
e--------5----------------5----------
B--------------5----------------5----
G-----7-----7----------7-----7-------
D------------------------------------
A--5----------------5----------------
E------------------------------------

           2da guitarra (no confundir guitarra con trompetas ni saxo)

e------------------------------------
B------------------------------------
G------------------------------------    Los acordes que hacen (creo
D------------------------------------    que con trompetas u órgano)
A---5--4-----------------------------    son G y E. Para mi parecer
E---------3--------2--3--5-----------    la guitarra no los hace.

             Todo esto, x3

Verso         [PM] = Palm Mute = Acordes muteados

LA (PM)                      DO#m (PM)
Lunes por la madrugada yo cierro los ojos y veo tu cara
RE (PM)                   
que sonríe cómplice 
SOL       MI
de amor oh oh oh

2da guitarra
e------------------------------------
B------------------------------------
G------------------------------------
D------------------------------------
A---5--4-----------------------------
E---------3----2--3--5---------------


LA (PM)                  DO#m (PM)
Días en la carretera yo siento aquí dentro la emoción
     RE (PM)           
de haberte dado 
  SOL       MI
lo mejor oh oh oh

2da guitarra
e------------------------------------
B------------------------------------
G------------------------------------
D------------------------------------
A---5--4-----------------------------
E---------3----2--3--5---------------

Estribillo

(SIm) RE          LA         DO#m
Yo no se si es en vano este amor

2da guitarra
e----------------------------
B----------------------------
G----------------------------
D----------------------------
A-2---2-4-5---5-4-------7-4--
E-----------------5---5------

SIm (PM)
aquí no hay luces de cera

2da guitarra
e-------0---0---0-2------
B-----2---2---2----------
G------------------------
D------------------------
A--0---------------------
E------------------------

  SOL (PM)                
y algo en mi no se serena     

2da guitarra
e-5-3-------5-3----------
B------3---------3-----5-
G---------3---------3----
D------------------------
A------------------------
E------------------------

LA (PM)
noooooo 

2da guitarra
Intro
            Dom# (PM) Re (PM) Sol Mi
wo oh oh oh oh

2da guitarra
Intro

Verso

LA (PM)                    DO#m (PM)
Yo ya no comprendo nada tantas caras dibujadas
RE (PM)                  
como manchas en una 
     
     SOL        MI
pared hum hum hum

2da guitarra
e------------------------------------
B------------------------------------
G------------------------------------
D------------------------------------
A---5--4-----------------------------
E---------3----2--3--5---------------


LA (PM)                    DO#m (PM)
Noches de melancolía pateando en una ciudad vacía
RE (PM)                     
en la oscuridad te 

SOL       MI
busco a vos.

2da guitarra
e------------------------------------
B------------------------------------
G------------------------------------
D------------------------------------
A---5--4-----------------------------
E---------3----2--3--5---------------

Estribillo

(SIm)  RE         LA         DO#m
Quizás hoy si te pueda encontrar

2da guitarra
e----------------------------
B----------------------------
G----------------------------
D----------------------------
A-2---2-4-5---5-4-------7-4--
E-----------------5---5------

SIm (PM)
Mas allá de toda pena

2da guitarra
e-------0---0---0-2---
B-----2---2---2-------
G---------------------
D---------------------
A--0------------------
E---------------------

  SOL (PM)                
Siento que la vida es buena  

2da guitarra
e-5-3-------5-3----------
B------3---------3-----5-
G---------3---------3----
D------------------------
A------------------------
E------------------------

LA (PM)
hoooooyyy 

Solo saxo
DO#m RE SOL MI   LA DO#m RE SOL MI

2da guitarra
Intro


(SIm)  RE          LA         DO#m
Yo se que no es en vano este amor

2da guitarra
e----------------------------
B----------------------------
G----------------------------
D----------------------------
A-2---2-4-5---5-4-------7-4--
E-----------------5---5------

SIm (PM)
Mas allá de toda pena

2da guitarra
e-------0---0---0-2---
B-----2---2---2-------
G---------------------
D---------------------
A--0------------------
E---------------------

  SOL (PM)                
Siento que la vida es buena  

2da guitarra
e-5-3-------5-3----------
B------3---------3-----5-
G---------3---------3----
D------------------------
A------------------------
E------------------------

LA (PM)
hoooooyyy 

                A
e--------0----------------0----------
B-----2--------2-------2--------2----
G-----------4----------------4-------
D------------------------------------    x6
A--0----------------0----------------
E------------------------------------
Envía el tono de "Lunes por la Madrugada" a tu celular/móvil
Este fichero es trabajo propio de su transcriptor y representa su interpretación personal de la canción. El material contenido en esta página es
para exclusivo uso privado, por lo que se prohibe su reproducción o retransmisión, así como su uso para fines comerciales.
© LaCuerda.net · Aviso Legal · Privacidad