Letra y Acordes de Abel Zavala: Jesús mi fiel amigo
Conexión · Inscripción
Letras y Acordes
Pantalla Completa
Imprimir
Versión Texto
Ańadir Favorito
Otras Versiones

Mostrar Diagramas
Desfile Automático
Manipular Acordes
Formato del Texto

Abel Zavala
Jesús mi fiel amigo
calidad:
azav0034
AUTOR: Abel Zavala
ALBUM: Jesus Mi Fiel Amigo (2001)
Enviado por Jhonattan
BUENO ESTA ES MI PRIMERA TRANSCRIPCION SIENTO QUE LAS QUE HAN SUBIDO NO
COMPLEMENTAN TODA LA CANCION, ESPERO QUE LES SEA DE SU AGRADO
Y LES AYUDE MUCHO EL SOLO QUE SAQUE ES DE MUCHA AYUDA
PARA EL SOLO ORIGINAL SUENA CASI IGUAL DIOS LOS BENDIGA A TODOS
 Y OJALA Y LES SEA DE MUCHA BENDICION JESUS MI FIEL AMIGO- ZABALA
CORO:
 C               G     C
Jesus mi fiel Amigo
                G      C
mi Dulce Caminar
B7              Em
Quedate conmigo
                        F
No quiero volver atras
   F           Am     G      F           C
//   No Quiero   Volver Atras //


VERSO 1:

          G                        Cadd2
Llevame alla, Donde se que Habra Paz
                    G
Donde tengo que callar
                     Am7
para escucharte Hablar
                     Em
donde todo es realidad
          D            C    G      C
y el tiempo no existe más

VERSO 2:

             G                      Cadd2
Una y otra vez, Al estar yo junto a Ti
                   G
No me puedo contener
                   Am7
Cuando me miras asi
          Am          Em
Ya no hay nada que decir
     D           C     G     C
Eres todo para mi

CORO:
                  G   C
Jesus mi fiel Amigo
               G
mi Dulce Caminar
B7            Em
Quedate conmigo
                    F
No quiero volver atras
   F           Am     G      F
//   No Quiero   Volver Atras //

Puente antes del solo:
F  /C   G/ el solo entra con C


SOLO:
E---------------------------------------------------------------
B------------------12-------12-13--13 -13-12-12-10-------10-
G---------12--14-------14---------------------------12---
D------12------------------------------------
A-12-14------------------------------------------------------12-10-12-10-
E----------------------------------------------------

E------------------------11/12----------------------------15-14-15-14-12--
B--12-13--13-13-12-12--15--------------------------12-15-----
G-14---------------------------15-14-15-12-----12-14---------
D------------------------------------------14-16-----
A---------------------------------------------------
E--------------------------------------------------------------

E------15-16-16-15-16---------------------------------------------
B-15/17-----------------17-16-17-16-17-16--17-16------------------15--17
G--------------------------------------------------17-----14-16-17--16--14
D-----------------------------------------------------------------
A---------------------------------------------------------
E-----------------------------------------------------
La parte del traste 17 de la cuerga G final se repite 2 veces y
en el intermedio de cada va
G-----14-17-16-14


PUEDEN ESCRIBIRME AL CORREO SI ALGO JOTTA_0821@HOTMAIL.COM
DIOS LOS BENDIGA
Envía el tono de "Jesús mi fiel amigo" a tu celular/móvil
Este fichero es trabajo propio de su transcriptor y representa su interpretación personal de la canción. El material contenido en esta página es
para exclusivo uso privado, por lo que se prohibe su reproducción o retransmisión, así como su uso para fines comerciales.
© LaCuerda.net · Aviso Legal · Privacidad