Tablatura para Guitarra de La 5a. estación: El sol no regresa
Conexión · Inscripción
Letras y Acordes
Pantalla Completa
Imprimir
Versión Texto
Añadir Favorito
Otras Versiones

Mostrar Diagramas
Desfile Automático
Manipular Acordes
Formato del Texto

La 5a. estación
El sol no regresa(TAB)
calidad:
5est0067
AUTOR: Angel Reyero Pontes, Pablo Domínguez Villarrubia
ALBUM: Flores de Alquiler (2004)
Enviado por anthony
                 D#               G#
e ------------------------------------
B ----8-8-8--6----------8-8-8--6------
G --------------8-8---------------8-5-
D ------------------------------------
A ------------------------------------
E ------------------------------------
                A#     G#  D#
e -----------------------------------
B -----------------------------------
G ----5-5-5-7-8-7-----3-5---5-3-3----
D -----------------------------------
A -----------------------------------
E -----------------------------------


              G#       A#        D#
e ---/8-8-8-6-4-4---4-/8-8-6-6-6-8-6-4-4-3--
B ------------------------------------------
G ---/8-8-8-7-5-5---5-/8-8-7-7-7-8-7-5-5-3--
D ------------------------------------------
A ------------------------------------------
E ------------------------------------------

         Cm           G#          A#     D#
e ------3-3-3-4-6-6------4-4-3------------------
B ------------------4-4---------6-4-3-4--4S^6-4-
G ---------------------------------------------
D ---------------------------------------------
A ---------------------------------------------
E ----------------------------------------------


             D#                 G#
Hace días perdí en alguna cantina
                 A#          G#        D#  riff.1
la mitad de mi alma, más el 15 de propina
                      D#                 G#
no es que sea el alcohol, la mejor medicina
                  A#              G#        D# riff.2
pero ayuda a olvidar, cuando no ves la salida.

   riff.1
 B----8-8-8--6--------
 G------------8-8-----

   riff.2
 B----3-3-3------3-----
 G----------6-4-------

CORO:
                    G#
Hoy te intento contar
              A#                    D#  Cm
que todo va bien aunque no te lo creas    e--3-3-3---------
                    G#                    B--------6-4-1---
aunque a estas alturas
                A#               D#
un último esfuerzo no valga la pena. e--3-3-3-4-6-6

                       G#
Hoy los buenos recuerdos
     A#                   Cm
se caen por las escaleras
                   G#
y tras varios tequilas
              A#
las nubes se van
                    D#
pero el sol no regresa.


 G# D#

Estrofa
                 D#
sueños de habitación
                    G#
de un hotel de carretera
                 A#
y unas gotas de lluvia
      G#               D#
que guardo en esta maleta
                   D#
ruedan por el colchón
                   G#
de mi cama ya desierta
                 A#
es la mejor solución
                    D#
para el dolor de cabeza



CORO
                    G#
Hoy te intento contar
              A#                    D#    Cm
que todo va bien aunque no te lo creas      (mismo riff del anterior)
                    G#
aunque a estas alturas
                A#               D#         (mismo riff del anterior)
un último esfuerzo no valga la pena.

                       G#
Hoy los buenos recuerdos
     A#                Cm
se caen por las escaleras
                   G#
y tras varios tequilas
              A#
las nubes se van
                    Cm
pero el sol no regresa.


SOLO                         varias veces
     Cm                        G#     A#
--8v-6---6h8---6-----------|------11-11--|
-------9---------8-6-------|11h13--------|
---------------------8-5---|-------------|
-------------------------8-|-------------|
---------------------------|-------------|
---------------------------|-------------|
     Cm                                     G#            A#
-11-10h11p10--------------------------------------------------------------
-------13-11-13-11--------------------------------------------------------
-------------------------12-10-12-10----------------------8----8h10-8-10^-
-------------------------------------13-12-13-12-10-8--10---10------------
--------------------------------------------------------------------------
--------------------------------------------------------------------------




CORO:
                    G#
Hoy te intento contar
              A#                    D#    Cm
que todo va bien aunque no te lo creas    e----3-3-3--------
                    G#                    b-----------6-4-1-
aunque a estas alturas
                A#               D#
un último esfuerzo no valga la pena. e--3-3-3-4-6-6

                       G#
Hoy los buenos recuerdos
     A#                Cm
se caen por las escaleras
                   G#
y tras varios tequilas
              A#
las nubes se van
                    D#
pero el sol no regresa.

                 G#
y tras varios tequilas
              A#
las nubes se van pero el sol no regresa


              G#            A#         D#     Cm
e ---/8-8-8-6-4-4---4-/8-8--6-6-6-8-6-4-4-3-
B ------------------------------------------
G ---/8-8-8-7-5-5---5-/8-8-7-7-7-8-7-5-5-3--
D ------------------------------------------
A ------------------------------------------
E ------------------------------------------

                 G#
y tras varios tequilas
              A#                   D#
las nubes se van pero el sol no regresa

G#   D#


me falta algunos riff pero lo sakare,ahi tienen las verdaderas notas 100% .
solo escuhen la cancion y saldra
Cualquier duda  escriban, anthonyf69@hotmail.com
Envía el tono de "El sol no regresa" a tu celular/móvil
Este fichero es trabajo propio de su transcriptor y representa su interpretación personal de la canción. El material contenido en esta página es
para exclusivo uso privado, por lo que se prohibe su reproducción o retransmisión, así como su uso para fines comerciales.
© LaCuerda.net · Aviso Legal · Privacidad